TSA (2)

51 ........lyr crd tab
Alien .....lyr crd tab

51

 a   G          F
Idac cmentarna aleja
      G
Szukam ciebie moj przyjacielu
Odeszles bo byles slaby
Jak such lisc
Dzis mozemy dotknac sie
Naszymi pustymi myslami
Obnarzyc swe oszustwa
I nasze balowe symienia

     F             E
    Juz nikogo nie drecza
      F         E
    Nasze zle spojrzenia
     F               G
    Dzis jestesmy nareszcie sami
     F               E
    W ten listopadowy wieczor

Idac jesienna aleja
Szukam ciebie moj przyjacielu
Chce byc tylko z toba
Przez kilka malych chwil
Pomoz mi przywolac dawne lata
Obudzic spiacych ludzi
Pomoz mi, pomoz mi pokonac smutek
Ktory pozostal, gdy nagle odeszles

    Juz nikogo nie drecza
    Nasze zle spojrzenia
    Dzis jestesmy nareszcie sami
    W ten listopadowy wieczor

#inna interpretacja
   e          d           c           d
E------0----------0-----------0-----------0-----|
B-----0-0----------0-----------0-----------0----|
G----9---9------7---7-7-----5---5-5-----7---7-7-|
D---9-----9----7-----7-----5-----5-----7-----7--|
A--7----------5-----------3-----------5---------|
E-----------------------------------------------|



--------------------------------------------------------------------------
--------------------------------------------------------------------------
--------------------------------------------------------------------------
--------------7-------------7-9---------------7---------------------------
5s7----9h10p9--------5s7-10-----10-----9-10-9--10-9-7---------------------
---------------10-------------------------------------10-8-7-5-7-5-3-2-3-0

E-----------------------------------------------
B-----------------------------------------------
G-----------------------------------------------
D------------------------------------7-9-10-9-7-
A-----------------------------5-7-10------------
E-0h2h3-2-0-5-----7-8-7-5-7-8-------------------


              3x
E--------------|  --------------10-------------10-----10------------------
B----8-8b10r8~-|  -7-8-10b12~-----11r10-8-10b11--8------11r10-8-7h8-10b11~
G---9----------|  --------------------------------------------------------
D--9-----------|  --------------------------------------------------------
A--------------|  --------------------------------------------------------
E--------------|  --------------------------------------------------------

E------------------------10-12-10-------------0-
B-(11~)-8p7h8p7~---10-12----------12-10h12p10---
G-----------------------------------------------
D-----------------------------------------------
A-----------------------------------------------
E-----------------------------------------------



Ref:
  a             h          4x
E----------5----------7-7-7-|
B----------5----------7-7-7-|
G----------5----------7-7-7-|
D-7-------------9-----------|
A-7-------------9-----------|
E-5-------------7-----------|



transcribed by: Piotr Liskiewicz piotrekl@szmo.com.pl 

Alien

  E   A       e     d       C    d          2x
E-0------0-----------------------------------|
B-0---2--2------8------0------1--------------|
G-1---2---2-----------7------------7---------|
D-2---2---2----9-----7--7----2----7----------|
A-2---0------/7-----5-------3----5-----0h2---|
E-0---------------------------------------h3-|


transcribed by: Piotr Liskiewicz piotrekl@szmo.com.pl 

otwórz do druku

Wysmarowane przez Tomka Pietrzkowskiego